part 2

(/) Slide Up  (\) Slide Down  (h) Hammer On  (p) Pull Off  (b) Bend (r) Release (v) Vibrato


E|-----------------------------------------------------------------------
B|-----------------------------------------------------------------------
G|---------------3-----3---0-------0-----3-----3---0-------0-----3-----3-
D|---2---------5-----5-------7-8-7-----5-----5-------7-8-7-----5-----5---
A|-4---1-4---7-----5-----4-----------7-----5-----4-----------6-----5-----
E|---------5-------------7-----------------------7-----------------------



E|---------------------------------------------------------------------------
B|-------------------------------------------------------------6-----6-----6-
G|---0-------0-----7-----7-----7-----7-------------------7---7-----7-----7---
D|-----7-8-7---0-----0-------8-----8-----7-11---7-11---7---7-----7-----7---7-
A|-4-------------8-----8---7-----7-----7------7------8-----------------------
E|-7-----------8-----------5-----------7-------------0-----------------0-----



E|---0-----0-----0-----0-------------------3-----3-----1-----1-----------6-
B|-----8-----8-----8-----8-----6-----6---3-----3-----1-----1-------5---5---
G|---------------------------7-----7---3-----3-----2-----2-------3---5-----
D|-7-----7-----7-----7---7-7-----7-----------------------------5-----------
A|-4-----------------------------------------------3-----------3-----3-----
E|-------------------------0-----------5-----------------------------------



E|-----5-----5-----5-----5-----6-----6-----6-----6-----5-----5-----5-----5-
B|---6-----6-----6-----6-----8-----8-----8-----8-----6-----6-----8-----6---
G|-------5-----5-----5---5-5-----5-----5-----5---5-5-----5-----6-----7-----
D|-3-----------------------------------------------------------------------
A|-------------------8-----7-----------7-----7-----8-----------7-----5-----
E|-3-----------------------------------------------------------------------



E|-0--------0-------------10-------10-----6-----6-----5-----5-----5-----5-----5-----5-
B|-------10------10----10-------10------8-----8-----8-----8-----6-----6-----7-----7---
G|----12------12----10-------10-------8-----8-----6-----6-----7-----7-----7-----7-----
D|------------------0-----------------------------------------0-----------------0-----
A|------------------------------------------------------------------------------------
E|-11---------------------------------5-----------7-----------------------------------



E|-----6--------------------6-----5-----5-----5-----5-----6--------------------6-
B|---8------8-11---8-11---8-----7-----7-----7-----7-----8------8-11---8-11---8---
G|-8-----8-------8------6-----7-----7-----7-----7-----8-----8-------8------6-----
D|-0-------------8------5-----0-----------------0-----0-------------8------5-----
A|-------10-------------------------------------------------10-------------------
E|-------------------------------------------------------------------------------



E|-----5-----5-----6-----6-----6-----6-----6-----5-----5---0-------3-----1-
B|---7-----7-----8-----8-----8-----8-----8-----6-----6-------8---5-----3---
G|-7-----7-----7-----7-----5-----5-----5-----5-----------------2-----2-----
D|-0-----------------------------------------------8-----8-----------0-----
A|-------------------------7-----------------8-----5-----7-----4-----------
E|-------------5-----------------------------------------------------------



E|-----0-----0-----0-----0-----1-----1-----1---0-----0-----1-----1-----1-----1-
B|---3-----3-----3-----3-----3-----3-----3---2-----2-----3-----3-----3-----3---
G|-0-----0-----2-----3-----2-----2-----2---------2---2-------2-----2-----2---2-
D|-----------------------------------------------------0-----------------------
A|-1-----------0-----------0-----------0---------------------------------------
E|-------------------5---------------------------------0-----------------------



E|-----3-----3-----3-----3---------------10----13-10-17-13-10-9-12----9-------0-3---------
B|-5-5-----5-----5-----5-----------10-------10---------------------11------11-----3-2-----
G|-2-----2-----2-----2---2-2-10-------10--------------------------------12----------3-2-0-
D|------------------------------12-------------------0-----0------------------------------
A|-4----------------------------------------------------------0---------------------0---0-
E|-------------------------0--------------------------------------------------------------



E|---------------10----13-10-17-13-10-9-12----9-------0-3----------------------------------
B|---------10-------10---------------------11------11-----3-2------------------------3-----
G|---10-------10--------------------------------12----------3-2-0-7---7-10-7---------------
D|-0----12-------------------0-----0--------------------------------7--------7---3-7---7-3-
A|------------------------------------0---------------------0---0--------------5-----------
E|-0--------------------------------------------------------------0------------------------



E|-------------------------------
B|---------------------------3-3-
G|-------2-------------------2-2-
D|-----3---3-----0-----------3-3-
A|-0-5-------5-0---0---0---------
E|-------------------3---3-0-0-0-
http://www.guitartabcreator.com
Guitar Tab Creator is intended to store guitar tab created through the tool. It currently does not support in-line text editing. Any text you place in here will be lost. If you need to comment on your tab, please use the "Tab Notes" section located below.