DBZ

(/) Slide Up  (\) Slide Down  (h) Hammer On  (p) Pull Off  (b) Bend (r) Release (v) Vibrato

E|--------------------------------------------------------------------
B|-12-7-----12p7-----12p7-----12----------------------------------7---
G|------9--------9--------9-------------------------------------5---7-
D|--------9--------9--------9----0/7-6---7/9-7-6-7-6-6-4v-2-4-5-------
A|-------------------------------------7------------------------------
E|--------------------------------------------------------------------



E|---------------------------------------------12-----------------------------------------------------------------------------------------
B|-------------------------------------12--10-----------------------------------------------------12p7--------12p7--------12p7--------12--
G|----------------------------------9-------------------------------------------------------------------9-----------9-----------9---------
D|--7--6-----7/9--7--6--7--9--9--7-----------------2--4--5--7--9--10--12--12--10--10--9--9--7--9-----------9-----------9-----------9------
A|--------7-------------------------------------------------------------------------------------------------------------------------------
E|----------------------------------------------------------------------------------------------------------------------------------------
http://www.guitartabcreator.com
Guitar Tab Creator is intended to store guitar tab created through the tool. It currently does not support in-line text editing. Any text you place in here will be lost. If you need to comment on your tab, please use the "Tab Notes" section located below.