karma

(/) Slide Up  (\) Slide Down  (h) Hammer On  (p) Pull Off  (b) Bend (r) Release (v) Vibrato

apre breakdown to lit 1 carE apre to zouE sa
E|----------------------------------------------------------------------------------------------
B|----------------------------------------------------------------------------------------------
G|----------------------------------------------------------------------------------------------
D|--------2-----2--0-----0-------0-----0h2p0-----0--------0-----5--3--2-------2-----2-----2-----
A|-----0-----0--------3-------3-----3---------3--------2-----2-------------0-----0-----0-----0--
E|--0-----------------------------------------------3-------------------------------------------

et kan to fini zouE laO to zouE sa et to met to solo :P

E|-----------------------------------------------------------------------------------
B|-----------------------------------------------------------------------------------
G|-----------------------------------------------------------------------------------
D|-----------------------------------------------------------------------------------
A|-----------------------------------------------------------------------------------
E|--7--7--7--7--7--7--7b7----7--7--7--7b7----7--7--7--7--9--9--9--9--10--10--10--10--



E|-------------------------------------------------------------------------------
B|-------------------------------------------------------------------------------
G|-------------------------------------------------------------------------------
D|-------------------------------------------------------------------------------
A|-------------------------------------------------------------------------------
E|--5--5--5--5--5--5--5b5----5--5--5--5b5----5--5--5--5--3--3--3--3--5--5--5--5--
http://www.guitartabcreator.com
Guitar Tab Creator is intended to store guitar tab created through the tool. It currently does not support in-line text editing. Any text you place in here will be lost. If you need to comment on your tab, please use the "Tab Notes" section located below.