18 Wheels of Steel - Pedal to the Metal theme

(/) Slide Up  (\) Slide Down  (h) Hammer On  (p) Pull Off  (b) Bend (r) Release (v) Vibrato


E|-----------------------------------------------------------------------------------------------
B|--1----3--4--3--1--------------------------------4--3--1--1------3--4--3--1--------------------
G|-----------------------0--3----0----1--3--3--------------------------------------0--3----5-----
D|-----------------------------------------------------------------------------------------------
A|-----------------------------------------------------------------------------------------------
E|-----------------------------------------------------------------------------------------------



E|-----------------------------------------------------------------------------------------------
B|-----------------------------------------------------------------------------------------------
G|--7--8--5----7--8--7----5--7--8--5--7--8--7--8--5----------------------------------------------
D|-----------------------------------------------------------------------------------------------
A|-----------------------------------------------------------------------------------------------
E|-----------------------------------------------------------------------------------------------



E|-------------------------------------------------1----------3--1-----1----
B|-----1-----1--------4--3--1-----1-------1--4--1-------4--1--------4-------
G|--0-----3-----0--3-----------3-------3------------------------------------
D|--------------------------------------------------------------------------
A|--------------------------------------------------------------------------
E|--------------------------------------------------------------------------
http://www.guitartabcreator.com
Guitar Tab Creator is intended to store guitar tab created through the tool. It currently does not support in-line text editing. Any text you place in here will be lost. If you need to comment on your tab, please use the "Tab Notes" section located below.