Lipstick, A little Blood

(/) Slide Up  (\) Slide Down  (h) Hammer On  (p) Pull Off  (b) Bend (r) Release (v) Vibrato

Stave 1:

E|-------------------------------------------------
B|-------------------------------------------------
G|-------------------------------------------------
D|-------------------------------------------------
A|--7--7--7--7--7--7--7--7/3--3--3--3--3--3--3--3--
E|-------------------------------------------------

Stave 2:

E|-----------------------------------------
B|-----------------------------------------
G|-----------------------------------------
D|-----------------------------------------
A|--7--7--------7--7--------7--7-----------
E|--------7--7--------7--7--------7--7-----

Stave 3:

E|--------------------------------------------------------------------------------------------------
B|--------------------------------------------------------------------------------------------------
G|--------------------------------------------------------------------------------------------------
D|--5--5--5--5--5--5--5--5--8--8--8--8--8--8--8--8--------------------------------------------------
A|--------------------------------------------------6--6--6--6--6--6--6--6--3--3--3--3--3--3--3--3--
E|--------------------------------------------------------------------------------------------------

http://www.guitartabcreator.com
Guitar Tab Creator is intended to store guitar tab created through the tool. It currently does not support in-line text editing. Any text you place in here will be lost. If you need to comment on your tab, please use the "Tab Notes" section located below.