Carona

(/) Slide Up  (\) Slide Down  (h) Hammer On  (p) Pull Off  (b) Bend (r) Release (v) Vibrato
E|--------------------------------------------------------------------------------------------------
B|--------------------------------------------------------------------------------------------------
G|--------------------------------------------------------------------------------------------------
D|--------7--3--------3-----------7--3--------------------5--1--------1-----------5--1--------------
A|-----5-----------5-----5-----5-----------5-----0-----3-----------3-----3-----3-----------3-----0--
E|--3-----------6-----------3-----------6-----5-----1-----------4-----------1-----------4-----3-----



E|-------------------------------------------------------------------------------------
B|-------------------------------------------------------------------------------------
G|---------------------------------------0---------------------------------------0--0--
D|---------------------------------------2---------------------------------------2--2--
A|-----3-------5-----5-------6-----------2-----3-------5-----5-------6-----------2--2--
E|--1-----1/3-----3-----3/4-----4--3--3--1--1-----1/3-----3-----3/4-----4--3--3--1--0--
http://www.guitartabcreator.com
Guitar Tab Creator is intended to store guitar tab created through the tool. It currently does not support in-line text editing. Any text you place in here will be lost. If you need to comment on your tab, please use the "Tab Notes" section located below.