The Beatles-Day Tripper (solo only)

(/) Slide Up  (\) Slide Down  (h) Hammer On  (p) Pull Off  (b) Bend (r) Release (v) Vibrato
E|----------------------------------------------------------------
B|----------------------------------------------------------------
G|----------------------------------------------------------------
D|--------------------------9----7---------9/11---------7----9----
A|---------------------9--------------9------------9--------------
E|----7----10----11-----------------------------------------------



E|----------------------------------------------------------------
B|----------------------------------------------------------------
G|----------------------------------------------------------------
D|--------------------------9----7---------9/11---------7----9----
A|---------------------9--------------9------------9--------------
E|----7----10----11-----------------------------------------------



E|----------------------------------------------------------------
B|----------------------------------------------------------------
G|----------------------------------------------------------------
D|--------------------------9----7---------9/11---------7----9----
A|---------------------9--------------9------------9--------------
E|----7----10----11-----------------------------------------------



E|---------------------------------------------
B|-------------------------------10------------
G|--------------7h9p7----9b11----------11b9----
D|----9----9-----------------------------------
A|---------------------------------------------
E|---------------------------------------------



E|----------10------10--12--12b14b12--10--------------
B|--12--12------12------------------------12--10--12--
G|----------------------------------------------------
D|----------------------------------------------------
A|----------------------------------------------------
E|----------------------------------------------------
http://www.guitartabcreator.com
Guitar Tab Creator is intended to store guitar tab created through the tool. It currently does not support in-line text editing. Any text you place in here will be lost. If you need to comment on your tab, please use the "Tab Notes" section located below.