canon rock 1.0

(/) Slide Up  (\) Slide Down  (h) Hammer On  (p) Pull Off  (b) Bend (r) Release (v) Vibrato


E|-------------------------------------------------------------
B|----19----17----15----14----12----10----12----14----15\17----
G|-------------------------------------------------------------
D|-------------------------------------------------------------
A|-------------------------------------------------------------
E|-------------------------------------------------------------



E|---14--------15---14------------------14---17---19---17---15---14---12---14---10/9---
B|--------17-------------17---15---14--------------------------------------------------
G|-------------------------------------------------------------------------------------
D|-------------------------------------------------------------------------------------
A|-------------------------------------------------------------------------------------
E|-------------------------------------------------------------------------------------



E|-------------------------------------------
B|-------8/7-------5\7-------2\3-------3/2---
G|---7-------------------4-------------------
D|---7---------7---------4---------4---------
A|---5---------7---------2---------4---------
E|-------------5-------------------2---------



E|-----------------------------------
B|---12---10---8---7---5---7---3---2b
G|-----------------------------------
D|-----------------------------------
A|-----------------------------------
E|-----------------------------------
http://www.guitartabcreator.com
Guitar Tab Creator is intended to store guitar tab created through the tool. It currently does not support in-line text editing. Any text you place in here will be lost. If you need to comment on your tab, please use the "Tab Notes" section located below.