Who's Cryin Now solo

(/) Slide Up  (\) Slide Down  (h) Hammer On  (p) Pull Off  (b) Bend (r) Release (v) Vibrato

E|-----15-------15------15------15-------15-------15------15------15-------15-------15------15-----
B|--15b----15v------13------12--------15b----15v------13------12--------15b----15v------13---------
G|-------------------------------------------------------------------------------------------------
D|-------------------------------------------------------------------------------------------------
A|-------------------------------------------------------------------------------------------------
E|-------------------------------------------------------------------------------------------------



E|--------------------15-------15------15b-----15-------15------15b-------15-------15------15b---
B|--12------12v----15b----15v------13-------15b----15v------13---------15b----15v------13--------
G|------14---------------------------------------------------------------------------------------
D|-----------------------------------------------------------------------------------------------
A|-----------------------------------------------------------------------------------------------
E|-----------------------------------------------------------------------------------------------



E|-----15-------15------15---------------
B|--15b----15v------13------12------12v--
G|------------------------------14-------
D|---------------------------------------
A|---------------------------------------
E|---------------------------------------
http://www.guitartabcreator.com
Guitar Tab Creator is intended to store guitar tab created through the tool. It currently does not support in-line text editing. Any text you place in here will be lost. If you need to comment on your tab, please use the "Tab Notes" section located below.