Heading Out to the Highway

(/) Slide Up  (\) Slide Down  (h) Hammer On  (p) Pull Off  (b) Bend (r) Release (v) Vibrato
E|-----------------------------------------------|--------------------------------------------
B|-----------------------------------------------|--------------------------------------------
G|--------2--------------5-----4--------4--5--7--|--------2--------------5-----4-----5-----0--
D|--------2--------------5-----5--------5--5--7--|--------2--------------5-----5-----5-----0--
A|--0--0-----0--0--0--0-----0-----0--0-----------|--0--0-----0--0--0--0-----0-----0-----0-----
E|-----------------------------------------------|--------------------------------------------



E|-----------------------------------------------|--------------------------------------------
B|-----------------------------------------------|--------------------------------------------
G|--------2--------------5-----4--------4--5--7--|--------2--------------5-----4----5----0----
D|--------2--------------5-----5--------5--5--7--|--------2--------------5v----5----5----0----
A|--0--0-----0--0--0--0-----0-----0--0-----------|--0--0-----0--0--0--0-----------------------
E|-----------------------------------------------|--------------------------------------------



E|--------------------------------------------------------------------------------------------
B|--------------------------------------------------------------------------------------------
G|--2-----------5v--------------------2v--------------------------2v--------------------------
D|--2-----------5-----------5v--------2---------3-------5v--------2---------------------------
A|--0v----------3-----------5---------0---------3v------5---------0---------------------------
E|--------------------------3-------------------1-------3-------------------------------------



E|--------------------------------------------------------------------------------------------
B|-------------------3------------------------3----------------3--------------------3---------
G|-------------------2--------2------2--------2----2-----------2------2------2------2---------
D|----------2--------0--------2------2--------0----2----2------0------2------2------0---------
A|----------2-----------------0------0-------------0----2-------------0------0----------------
E|----------0-------------------------------------------0-------------------------------------



E|--------------------------------------------------------------------------------------------
B|--------------------------------------------------------------------------------------------
G|--2-------------------------------5---------------------------------------------------------
D|--2------2------------------------5----------------------------5----------------------------
A|--0------2------------------------3----------------------------5----------------------------
E|---------0-----------------------------------------------------3----------------------------
http://www.guitartabcreator.com
Guitar Tab Creator is intended to store guitar tab created through the tool. It currently does not support in-line text editing. Any text you place in here will be lost. If you need to comment on your tab, please use the "Tab Notes" section located below.