Fantasy

(/) Slide Up  (\) Slide Down  (h) Hammer On  (p) Pull Off  (b) Bend (r) Release (v) Vibrato
E|-----------------------------------------------------------18--17--15----------------------
B|-----------------------------------------------------------------------18--15--------------
G|---------------5---------------------------------5--5--------------------------17--15--14--
D|--5--5----8----5--5----8----5--5----8----3--3----5--5--------------------------------------
A|--5--5----8----3--5----8----5--5----8----3--3----3--3--------------------------------------
E|--3--3----6-------3----6----3--3----6----1--1----------------------------------------------



E|--------------------------------------------------------------------------------------
B|--------------------------------------------------------------------------------------
G|-----3-------5--3-------3------------5--5-------3-------5--3-------3------------5--5--
D|--5--3----5--5--3----5--3----3--3----5--5----5--3----5--5--3----5--3----3--3----5--5--
A|--5--1----5--3--1----5--1----3--3----3--3----5--1----5--3--1----5--1----3--3----3--3--
E|--3-------3----------3-------1--1------------3-------3----------3-------1--1----------



E|-----15-------15--
B|--18b------18b----
G|------------------
D|------------------
A|------------------
E|------------------
http://www.guitartabcreator.com
Guitar Tab Creator is intended to store guitar tab created through the tool. It currently does not support in-line text editing. Any text you place in here will be lost. If you need to comment on your tab, please use the "Tab Notes" section located below.