Falling leaves

(/) Slide Up  (\) Slide Down  (h) Hammer On  (p) Pull Off  (b) Bend (r) Release (v) Vibrato
E|-------3-------3-------3-------3-------3-------3-------3-------3-------
B|-----------------------------------------------------------------------
G|-----------------------------------------------------------------------
D|-------------------0-------------------------------0-------------------
A|-----------2---------------2---------------2---------------2-----------
E|---3-------------------------------3-----------------------------------



E|-------------------------------------------------------------------
B|-------0-------0-------0-------0-------0-------0-------0-------0---
G|-------------------0-------------------------------0---------------
D|-----------2---------------2---------------2---------------2-------
A|---2-------------------------------2-------------------------------
E|-------------------------------------------------------------------



E|-------0-------0-------0-------0-------0-------0-------0-------0---
B|-------------------3-------------------------------3---------------
G|-----------3---------------3---------------3---------------3-------
D|---3-------------------------------3-------------------------------
A|-------------------------------------------------------------------
E|-------------------------------------------------------------------



E|-----0-----0-----0-----0------------2-----2-----2-----2--
B|--------------1------------------------------3-----------
G|--------0-----------0-----2------------2-----------2-----
D|--2------------------------------2-----------------------
A|---------------------------------------------------------
E|---------------------------------------------------------
http://www.guitartabcreator.com
Guitar Tab Creator is intended to store guitar tab created through the tool. It currently does not support in-line text editing. Any text you place in here will be lost. If you need to comment on your tab, please use the "Tab Notes" section located below.