Trilling Exercise

(/) Slide Up  (\) Slide Down  (h) Hammer On  (p) Pull Off  (b) Bend (r) Release (v) Vibrato

E|--0--1--0--1--0--1--0--1--------------------------------------------------
B|--------------------------1--2--1--2--1--2--1--2--------------------------
G|--------------------------------------------------2--3--2--3--2--3--2--3--
D|--------------------------------------------------------------------------
A|--------------------------------------------------------------------------
E|--------------------------------------------------------------------------



E|--------------------------------------------------------------------------
B|--------------------------------------------------------------------------
G|--------------------------------------------------------------------------
D|--3--4--3--4--3--4--3--4--------------------------------------------------
A|--------------------------4--5--4--5--4--5--4--5--------------------------
E|--------------------------------------------------5--6--5--6--5--6--5--6--



E|--------------------------------------------------------------------------
B|--------------------------------------------------------------------------
G|--------------------------------------------------5--6--5--6--5--6--5--6--
D|--------------------------5--6--5--6--5--6--5--6--------------------------
A|--5--6--5--6--5--6--5--6--------------------------------------------------
E|--------------------------------------------------------------------------



E|--------------------------5--6--5--6--5--6--5--6--4--5--4--5--4--5--4--5--
B|--5--6--5--6--5--6--5--6--------------------------------------------------
G|--------------------------------------------------------------------------
D|--------------------------------------------------------------------------
A|--------------------------------------------------------------------------
E|--------------------------------------------------------------------------



E|--3--4--3--4--3--4--3--4--2--3--2--3--2--3--2--3--1--2--1--2--1--2--1--2--
B|--------------------------------------------------------------------------
G|--------------------------------------------------------------------------
D|--------------------------------------------------------------------------
A|--------------------------------------------------------------------------
E|--------------------------------------------------------------------------



E|--------------------------------------------------------------------------
B|--2--3--2--3--2--3--2--3--------------------------------------------------
G|--------------------------3--4--3--4--3--4--3--4--------------------------
D|--------------------------------------------------4--5--4--5--4--5--4--5--
A|--------------------------------------------------------------------------
E|--------------------------------------------------------------------------



E|--------------------------------------------------------------------------
B|--------------------------------------------------------------------------
G|--------------------------------------------------------------------------
D|--------------------------------------------------------------------------
A|--5--6--5--6--5--6--5--6--------------------------6--7--6--7--6--7--6--7--
E|--------------------------6--7--6--7--6--7--6--7--------------------------



E|--------------------------------------------------------------------------
B|--------------------------------------------------6--7--6--7--6--7--6--7--
G|--------------------------6--7--6--7--6--7--6--7--------------------------
D|--6--7--6--7--6--7--6--7--------------------------------------------------
A|--------------------------------------------------------------------------
E|--------------------------------------------------------------------------



E|--6--7--6--7--6--7--6--7--5--6--5--6--5--6--5--6--4--5--4--5--4--5--4--5--
B|--------------------------------------------------------------------------
G|--------------------------------------------------------------------------
D|--------------------------------------------------------------------------
A|--------------------------------------------------------------------------
E|--------------------------------------------------------------------------



E|--3--4--3--4--3--4--3--4--2--3--2--3--2--3--2--3--------------------------
B|--------------------------------------------------3--4--3--4--3--4--3--4--
G|--------------------------------------------------------------------------
D|--------------------------------------------------------------------------
A|--------------------------------------------------------------------------
E|--------------------------------------------------------------------------



E|--------------------------------------------------------------------------
B|--------------------------------------------------------------------------
G|--4--5--4--5--4--5--4--5--------------------------------------------------
D|--------------------------5--6--5--6--5--6--5--6--------------------------
A|--------------------------------------------------6--7--6--7--6--7--6--7--
E|--------------------------------------------------------------------------



E|--------------------------------------------------------------------------
B|--------------------------------------------------------------------------
G|--------------------------------------------------------------------------
D|--------------------------------------------------7--8--7--8--7--8--7--8--
A|--------------------------7--8--7--8--7--8--7--8--------------------------
E|--7--8--7--8--7--8--7--8--------------------------------------------------



E|--------------------------------------------------7--8--7--8--7--8--7--8--
B|--------------------------7--8--7--8--7--8--7--8--------------------------
G|--7--8--7--8--7--8--7--8--------------------------------------------------
D|--------------------------------------------------------------------------
A|--------------------------------------------------------------------------
E|--------------------------------------------------------------------------



E|--6--7--6--7--6--7--6--7--5--6--5--6--5--6--5--6--4--5--4--5--4--5--4--5--
B|--------------------------------------------------------------------------
G|--------------------------------------------------------------------------
D|--------------------------------------------------------------------------
A|--------------------------------------------------------------------------
E|--------------------------------------------------------------------------



E|--3--4--3--4--3--4--3--4--------------------------------------------------
B|--------------------------4--5--4--5--4--5--4--5--------------------------
G|--------------------------------------------------5--6--5--6--5--6--5--6--
D|--------------------------------------------------------------------------
A|--------------------------------------------------------------------------
E|--------------------------------------------------------------------------



E|--------------------------------------------------------------------------
B|--------------------------------------------------------------------------
G|--------------------------------------------------------------------------
D|--6--7--6--7--6--7--6--7--------------------------------------------------
A|--------------------------7--8--7--8--7--8--7--8--------------------------
E|--------------------------------------------------8--9--8--9--8--9--8--9--



E|--------------------------------------------------------------------------
B|--------------------------------------------------------------------------
G|--------------------------------------------------8--9--8--9--8--9--8--9--
D|--------------------------8--9--8--9--8--9--8--9--------------------------
A|--8--9--8--9--8--9--8--9--------------------------------------------------
E|--------------------------------------------------------------------------
http://www.guitartabcreator.com
Guitar Tab Creator is intended to store guitar tab created through the tool. It currently does not support in-line text editing. Any text you place in here will be lost. If you need to comment on your tab, please use the "Tab Notes" section located below.