..

(/) Slide Up  (\) Slide Down  (h) Hammer On  (p) Pull Off  (b) Bend (r) Release (v) Vibrato

CAPO 3

INTRO:
E|----------------------------------------
B|-----0-----0-----0-------0-----0-----0--
G|----0-----0-----0-------0-----0-----0---
D|--2-------------------2-----------------
A|--------3-----5-------------3-----5-----
E|----------------------------------------


E|----------------------------------------
B|-----0-----0-----0-------0-----0-----0--
G|----0-----0-----0-------0-----0-----0--- 2x
D|--2-------------------2-----------------
A|--------3-----5-------------3-----5-----
E|----------------------------------------


CHORES:

D F C B

D F C B

D F C B

D F C B

E|----------------------------------------
B|-----0-----0-----0-------0-----0-----0--
G|----0-----0-----0-------0-----0-----0---
D|--2-------------------2----------------- 2X
A|--------3-----5-------------3-----5-----
E|----------------------------------------


CHORES:

D F C B

D F C B

D F C B

D F C B


E|----------------------------------------
B|----00----00----00------00----00----00--
G|----00----00----00------00----00----00--
D|--2-------------------2----------------- 2X
A|--------3-----5-------------3-----5-----
E|----------------------------------------


CHORES:

D F C B

D F C B

D F C B

D F C B

CHORES:
(een keer aanslaan)

D F C B

D F C B

D F C B

D F C B









Guitar Tab Creator is intended to store guitar tab created through the tool. It currently does not support in-line text editing. Any text you place in here will be lost. If you need to comment on your tab, please use the "Tab Notes" section located below.