Random Jam

(/) Slide Up  (\) Slide Down  (h) Hammer On  (p) Pull Off  (b) Bend (r) Release (v) Vibrato
E|-------------------------------------------
B|-------------------------------------------
G|----------------7--9/11/14\11\9\7--9p7-----
D|----------7--9--------------------------9--
A|--5/7--9-----------------------------------
E|-------------------------------------------



E|------------------------------------
B|------------------------------------
G|---------7--9---------7--9--11\9\7--
D|--4/7/9--------4/7/9----------------
A|------------------------------------
E|------------------------------------



E|----------------------------------------------------------
B|----------------------------------------------------------
G|-----------9-------------9---------------4-------------4--
D|--------7-------------7---------------2-------------2-----
A|--0--9----------0--9------------0--4----------0--4--------
E|----------------------------------------------------------
http://www.guitartabcreator.com
Guitar Tab Creator is intended to store guitar tab created through the tool. It currently does not support in-line text editing. Any text you place in here will be lost. If you need to comment on your tab, please use the "Tab Notes" section located below.