Old Chordsy Thing

(/) Slide Up  (\) Slide Down  (h) Hammer On  (p) Pull Off  (b) Bend (r) Release (v) Vibrato


E|--------------------------
B|--------------------------
G|------14------13--9---9---
D|------12------11--11--11--
A|--14--14--12--12--11--11--
E|--------------------------



E|----------------------------------------------------------
B|----------------------------------------------------------
G|--7--7--7--7--6--6--6--6--13--13--13--13--14--14--14--14--
D|--4--4--4--4--4--4--4--4--11--11--11--11--11--11--11--11--
A|--5--5--5--5--5--5--5--5--12--12--12--12--12--12--12--12--
E|----------------------------------------------------------
http://www.guitartabcreator.com
Guitar Tab Creator is intended to store guitar tab created through the tool. It currently does not support in-line text editing. Any text you place in here will be lost. If you need to comment on your tab, please use the "Tab Notes" section located below.