Darling The Panda

(/) Slide Up  (\) Slide Down  (h) Hammer On  (p) Pull Off  (b) Bend (r) Release (v) Vibrato


E|--------------------------------------------
B|--------------------------------------------
G|--2--4--5--5--2--4--5--7--5--5--5--5--5--5--
D|--3--3--3--3--3--3--3-----7--5--3--2--0-----
A|-----------------------------------------3--
E|--------------------------------------------



E|------------------------------------------------------------------------------------------
B|------------------------------------------------------------------------------------------
G|------9------12-------------14--12--9------9------12-------------14--14--12--12h14/16-----
D|--10-----10------10--9--10-------------10-----10------10--9--10---------------------------
A|------------------------------------------------------------------------------------------
E|------------------------------------------------------------------------------------------



E|---------------------------------------------------------------------------------
B|---------------------------------------------------------------------------------
G|-----5-----9--------------------------------5-----9-----------------5-----5h7/9--
D|--7-----7-----7--6--7--7--6--7--7--6--7--7-----7-----7--6--7--5--7-----7---------
A|---------------------------------------------------------------------------------
E|---------------------------------------------------------------------------------



E|-----------------------------------------------------------------------
B|-----------------------------------------------------------------------
G|-----------------------------------------------------------------------
D|--2h3----10--9----3h5----12--10--2h3--3p0h2h3--3--0--2h3--3--0h2h3--3--
A|-----------------------------------------------------------------------
E|-----------------------------------------------------------------------



E|---------------------------------------
B|---------------------------------------
G|---------------------------------------
D|---------------------------------------
A|-------5/7--8--7---------5/7--8----10--
E|--1-----------------1------------------



E|---------------------------------------------------------
B|---------------------------------------------------------
G|---------------------------------------------------------
D|---------------------------------------------------------
A|---------3--5--3--0h3p0h3p0-------5--7--5--3--3h5p3h5p3--
E|--0h1------------------------1h3-------------------------



E|-----------------------------------------------------
B|-----------------------------------------------------
G|-----------------------------------------------------
D|-----------------------------------------------------
A|--------------5--5--7--7-----------------------------
E|--1--1--1--1--------------8--8--8--8--7--7--7--7-----



E|------------------------------------------------------
B|------------------------------------------------------
G|------------------------------------------------------
D|------------------------------------------------------
A|--------------5--5--7--7------------------------------
E|--1--1--1--1--------------8--8--8--8--10--10--10--10--



E|---------------------------------------------------------------------------------------
B|---------------------------------------------------------------------------------------
G|------9------12-------------14--12--9------9------12-------------14--14--12--12h14/16--
D|--10-----10------10--9--10-------------10-----10------10--9--10------------------------
A|---------------------------------------------------------------------------------------
E|---------------------------------------------------------------------------------------
http://www.guitartabcreator.com
Guitar Tab Creator is intended to store guitar tab created through the tool. It currently does not support in-line text editing. Any text you place in here will be lost. If you need to comment on your tab, please use the "Tab Notes" section located below.