WHOA SHUT IT DOWN! by Louie hxc

(/) Slide Up  (\) Slide Down  (h) Hammer On  (p) Pull Off  (b) Bend (r) Release (v) Vibrato


The acacia strain
whoa shut it down
bass drop g# (tunning G#D#G#C#)
G|-----------------------------------------------------------------------------
D|-----------------------------------------------------------------------------
A|-----------------------------------------------------------------------------
E|--1--1--1--1--1--1--1--1--1--1--1--1--1--1--1--1--1--1--1--1--1--1--1--1--1--

Verse
G|-----------------------
D|-----------------------
A|--5--------3-----------
E|-----6--1-----4--3--1--


post verse breakdown
G|--------------------------------------------
D|--------------------------------------------
A|--------------------------------------------
E|--0--0--0--0--0--0--0--0--0--0--0--0--0--0--


pre two step transition
G|--------
D|--------
A|--------
E|--7--6--

two step
G|-----------------------------------------------------------------
D|-----------------------------------------------------------------
A|--5--8--5--------------------------------------------------------
E|-----------0--0--0--7--0--6--0--0--0--0--0--0--7--6--0--1--3--4--


second breakdown
G|--------------------------------------------------
D|--------------------------------------------------
A|--------------------------------------------------
E|--0--0--0--0--0--0--0--0--0--0--0--0--0--0--0--0--


end of breakdown transition
G|-----------------------------------
D|-----------------------------------
A|-----------------------------------
E|--0--1--3--4--0--1--3--4--1--3--4--


post chant breakdown
G|--------------------------------------------------------------------------
D|--------------------------------------------------------------------------
A|--------------------------------------------------------------------------
E|--0--0--0--0--0--0--0--0--0--0--0--0--0--0--0--0--0--1--3--4--0--1--3--4--



second two step
G|-----------------
D|-----------------
A|-----------------
E|--4--5--4--1--0--



THE REST IS SIMPLE 0 Rythms in a breakdown with variations listen to song and follow guitar track
http://www.guitartabcreator.com
Guitar Tab Creator is intended to store guitar tab created through the tool. It currently does not support in-line text editing. Any text you place in here will be lost. If you need to comment on your tab, please use the "Tab Notes" section located below.