Newoldone

(/) Slide Up  (\) Slide Down  (h) Hammer On  (p) Pull Off  (b) Bend (r) Release (v) Vibrato
E|------------------------------------------------------------------------------------
B|------------------------------------------------------------------------------------
G|------------------------------------------------------------------------------------
D|--------------2/3--------------------------6-----7h8--------------------------------
A|--------4--1----------3--4--------------------8----------6--9--8--------------------
E|--2--2-------------4--------4--1--1--1--1-------------6-----------7--7--7--7--7--7--



E|------------------------------------------------------------
B|------------------------------------------------------------
G|------------------------------------------------------------
D|------------------------------------------4--3--4/8--6--10--
A|--8--9--11----------------------------------------------11--
E|------------6--6--6--6--6--6--4--4--4--4--------------------
http://www.guitartabcreator.com
Guitar Tab Creator is intended to store guitar tab created through the tool. It currently does not support in-line text editing. Any text you place in here will be lost. If you need to comment on your tab, please use the "Tab Notes" section located below.