song 1 version 2

(/) Slide Up  (\) Slide Down  (h) Hammer On  (p) Pull Off  (b) Bend (r) Release (v) Vibrato

Stave 1:

E|-3-----3-----3-----3/5\3-2-----2-----2-----2p0h2-0-----0-----0-----3-------------------------
B|---3-----3-----3-----------3-----3-----3-----------1-----1-----1-------0-----0-----0-----3---
G|-----0-----0-----0-----------2-----2-----2-----------2-----2-----2---0---1-----1-----1-------
D|---------------------------------------------------------------------------2-----2-----2---2-
A|---------------------------------------------------------------------------------------------
E|---------------------------------------------------------------------------------------------

Stave 2:

E|-3-----3-----3-----3-----2-----2-----2-----2-----0-----0-----0-----0-----------------------------
B|---3-----3-----3-----3-----3-----3-----3-----3-----1-----1-----1-----1---0-----0-----0-----0-----
G|-----0-----0-----0-----0-----2-----2-----2-----2-----2-----2-----2-----2---1-----1-----1-----1---
D|-----------------------------------------------------------------------------2-----2-----2-----2-
A|-------------------------------------------------------------------------------------------------
E|-------------------------------------------------------------------------------------------------

Stave 3:

E|-3-----3-----3-----3-----2-----2-----2-----2-----0-----0-----0-----0-------------------------------
B|---3-----3-----3-----3-----3-----3-----3-----3-----1-----1-----1-----1---1-----1-----1-----1-----3-
G|-----0-----0-----0-----0-----2-----2-----2-----2-----2-----2-----2-----2---2-----2-----2-----2-----
D|-----------------------------------------------------------------------------3-----3-----3-----3---
A|---------------------------------------------------------------------------------------------------
E|---------------------------------------------------------------------------------------------------

Stave 4:

E|-------0-------0-0-----3-------0------
B|---1---------0-----------0-------1----
G|-----2-----------------------------2v-
D|--------------------------------------
A|-0-------0---------1-2-----2-0--------
E|-----------0-------0-3-----3-0--------

http://www.guitartabcreator.com
Guitar Tab Creator is intended to store guitar tab created through the tool. It currently does not support in-line text editing. Any text you place in here will be lost. If you need to comment on your tab, please use the "Tab Notes" section located below.