song 1 intro

(/) Slide Up  (\) Slide Down  (h) Hammer On  (p) Pull Off  (b) Bend (r) Release (v) Vibrato

Stave 1:

E|-----------4--------------4--------------4--------7-----------
B|-----5--------------4--------------5-----------------4--------
G|--------6--------------5--------------6-----------------4-----
D|--------------------------------------------------------------
A|--4-----------4-----------------4-----------4--------------6--
E|-----------------4-----------4-----------------7--------------

Stave 2:

E|-----------4--------------4--------------4--------7--------------
B|-----5--------------4--------------5-----------------4-----------
G|--------6--------------5--------------6-----------------4--------
D|-----------------------------------------------------------------
A|--4-----------4-----------------4-----------4--------------6--4--
E|-----------------4-----------4-----------------7-----------------

Stave 3:

E|--4--4--7--4----4--4--7--4--
B|--5--4--4--5----5--4--4--5--
G|--6--5--4--6----6--5--4--6--
D|--6--6--4--6----6--6--4--6--
A|--4--6--6--4----4--6--6--4--
E|--x--4--7--x----x--4--7--x--

Stave 4:

E|--4--7--4--5----4--7--4--4--
B|--5--4--5--5----5--4--4--5--
G|--4--4--6--6----6--4--5--6--
D|--6--4--6--7----6--4--6--6--
A|--7--6--4--7----4--6--6--4--
E|--7--7--x--5----x--7--4--x--

http://www.guitartabcreator.com
Guitar Tab Creator is intended to store guitar tab created through the tool. It currently does not support in-line text editing. Any text you place in here will be lost. If you need to comment on your tab, please use the "Tab Notes" section located below.