Bistro Fada

(/) Slide Up  (\) Slide Down  (h) Hammer On  (p) Pull Off  (b) Bend (r) Release (v) Vibrato

E|-------------------------------------------------------------------------------------------------
B|-------------------------------------------------8\4--7--6--5v--------4--5--7--8--10p8--7--8-----
G|-------------------------------3--4--5--4--3--4-----------------4--6-----------------------------
D|--------1--2--4--5--7p5--4--5--------------------------------------------------------------------
A|--2--4-------------------------------------------------------------------------------------------
E|-------------------------------------------------------------------------------------------------



E|--6--7--8--7--6--7--10--8------------------------------------------------------------------------
B|-----------------------------7--7--7v--4--5--7--4--5--7------------------------------------------
G|---------------------------------------------------------5--5--5v----2--4--5--2--4--5------------
D|---------------------------------------------------------------------------------------4--4--4v--
A|-------------------------------------------------------------------------------------------------
E|-------------------------------------------------------------------------------------------------



E|-----------------------------------------7-----
B|----------------------------7--10--7--8--------
G|-------------------------8------------------9--
D|-------------------7--9------------------------
A|-------------6--9------------------------------
E|--7h8p7\6h7------------------------------------



E|---------------------------------------------------------------------------------------7--4-----
B|-------------------------------------------------8\4--7--6--5v----5--6--5--4--5--6--5-----------
G|-------------------------------3--4--5--4--3--4-------------------------------------------------
D|--------1--2--4--5--7p5--4--5-------------------------------------------------------------------
A|--2--4------------------------------------------------------------------------------------------
E|------------------------------------------------------------------------------------------------



E|-----------------------------------------------------------------------------------------
B|--6--5---------------------------------8--7--5--8--7--5--------------7--5--4--7--5--4----
G|--------7--5--4h5--------4---------------------------------5--5--5v----------------------
D|-------------------7--6-----6--7v--------------------------------------------------------
A|-----------------------------------------------------------------------------------------
E|-----------------------------------------------------------------------------------------



E|--------------------------------------------------------------
B|---------------------------------------------4--5----5--5--5--
G|--4--4--4v----4h5--3--4--5v------4--3--4--6-------------------
D|--------------------------------------------------------------
A|--------------------------------------------------------------
E|--------------------------------------------------------------



E|----------------------------------------------------------------------------------
B|-------------------------------------------------8\4--7--6--5v--------4--5--7--8--
G|-------------------------------3--4--5--4--3--4-----------------4--6--------------
D|--------1--2--4--5--7p5--4--5-----------------------------------------------------
A|--2--4----------------------------------------------------------------------------
E|----------------------------------------------------------------------------------



E|--------------7h8p6--10--8----------------------------------------------------------
B|--------7--8----------------7--7--7v--4--5--7--4--5--7------------------------------
G|--8--9--------------------------------------------------5--5--5v--------------------
D|------------------------------------------------------------------2--4--5--2--4--5--
A|------------------------------------------------------------------------------------
E|------------------------------------------------------------------------------------



E|---------------------------------------------------7-----
B|--------------------------------------7--10--7--8--------
G|-----------------------------------8------------------9--
D|--4--4--4v-------------------7--9------------------------
A|-----------------------6--9------------------------------
E|------------7h8p7\6h7------------------------------------



E|------------------------------------------------------------------------------
B|-------------------------------------------7----10--7--8h10p8--7--8--7--------
G|----------------------------------------8-------------------------------8-----
D|----------------------------------7--9-------------------------------------9--
A|--6--7--8--9--6v------------6--9----------------------------------------------
E|------------------8--6--7v----------------------------------------------------



E|--------------------------------------------------------------------------------------------11--14--
B|---------------12--10--8--7--10--9--8--8v-------------------------------------------10--12----------
G|--8--9--11---------------------------------9------8--9--10--11--8------------8--11------------------
D|------------9------------------------------------------------------10--8--9-------------------------
A|----------------------------------------------------------------------------------------------------
E|----------------------------------------------------------------------------------------------------



E|--11----12h14r11--12--14--15--------------------------------------------------------------------
B|------------------------------12v--12h13\11--12--15--14--13--12---------------------------------
G|-----------------------------------------------------------------14--12--11h12------------------
D|--------------------------------------------------------------------------------14--14--13--14--
A|------------------------------------------------------------------------------------------------
E|------------------------------------------------------------------------------------------------
http://www.guitartabcreator.com
Guitar Tab Creator is intended to store guitar tab created through the tool. It currently does not support in-line text editing. Any text you place in here will be lost. If you need to comment on your tab, please use the "Tab Notes" section located below.