MEH

(/) Slide Up  (\) Slide Down  (h) Hammer On  (p) Pull Off  (b) Bend (r) Release (v) Vibrato
E|-----2-----------------------2--------------2--
B|--------3-----------------------3--------3-----
G|--------------4-----4-----------------4--------
D|--4--------4-----4-----4--4--------4-----------
A|-----------------------------------------------
E|-----------------------------------------------



E|--------2--3-----------------------
B|-----------------------------3-----
G|-----4--------4--3-----3-----------
D|--4-----------------3-----4-----4--
A|-----------------------------------
E|-----------------------------------



E|--------3--2--------------------
B|--------------3-----------------
G|-----4-----------4--3-----3-----
D|--4--------------------3-----4--
A|--------------------------------
E|--------------------------------



E|-----2-----------------------2--------------2--
B|--------3-----------------------3--------3-----
G|--------------4-----4-----------------4--------
D|--4--------4-----4-----4--4--------4-----------
A|-----------------------------------------------
E|-----------------------------------------------



E|-----3-----------2--------1-----------
B|--------3-----------3--------2--------
G|--------------------------------------
D|--4--------4--4--------3--------3--4--
A|--------------------------------------
E|--------------------------------------



E|--2--2--0--2--
B|--2--3--2--3--
G|--2--4--3--4--
D|--4--4--4--4--
A|--4--2--4--2--
E|--2--2-----2--
Guitar Tab Creator is intended to store guitar tab created through the tool. It currently does not support in-line text editing. Any text you place in here will be lost. If you need to comment on your tab, please use the "Tab Notes" section located below.