Pantera Cor-de-Rosa

(/) Slide Up  (\) Slide Down  (h) Hammer On  (p) Pull Off  (b) Bend (r) Release (v) Vibrato


E|--------------------------------------------------
B|--------------------------------------------------
G|--------------------------------------------------
D|--7--7--8--9--------8--9--------------9-----------
A|--------------7--8--------7--8-----------8--------
E|--------------------------------8--7--------7--6--



E|-----------------
B|-----------------
G|-----------------
D|-----------5--7--
A|-----8--6--------
E|--6--------------
http://www.guitartabcreator.com
Guitar Tab Creator is intended to store guitar tab created through the tool. It currently does not support in-line text editing. Any text you place in here will be lost. If you need to comment on your tab, please use the "Tab Notes" section located below.