ExercĂ­cio 3

(/) Slide Up  (\) Slide Down  (h) Hammer On  (p) Pull Off  (b) Bend (r) Release (v) Vibrato


E|--5--7--9--11--9--7--5----------------------------------------------
B|------------------------5--7--9--11--9--7--5------------------------
G|----------------------------------------------5--7--9--11--9--7--5--
D|--------------------------------------------------------------------
A|--------------------------------------------------------------------
E|--------------------------------------------------------------------



E|--------------------------------------------------------------------
B|--------------------------------------------------------------------
G|--------------------------------------------------------------------
D|--5--7--9--11--9--7--5----------------------------------------------
A|------------------------5--7--9--11--9--7--5------------------------
E|----------------------------------------------5--7--9--11--9--7--5--



E|--------------------------------------------------------------------
B|--------------------------------------------------------------------
G|--------------------------------------------------------------------
D|----------------------------------------------5--7--9--11--9--7--5--
A|------------------------5--7--9--11--9--7--5------------------------
E|--5--7--9--11--9--7--5----------------------------------------------



E|----------------------------------------------5--7--9--11--9--7--5--
B|------------------------5--7--9--11--9--7--5------------------------
G|--5--7--9--11--9--7--5----------------------------------------------
D|--------------------------------------------------------------------
A|--------------------------------------------------------------------
E|--------------------------------------------------------------------
http://www.guitartabcreator.com
Guitar Tab Creator is intended to store guitar tab created through the tool. It currently does not support in-line text editing. Any text you place in here will be lost. If you need to comment on your tab, please use the "Tab Notes" section located below.