ExercĂ­cio 1

(/) Slide Up  (\) Slide Down  (h) Hammer On  (p) Pull Off  (b) Bend (r) Release (v) Vibrato
E|--12----------------------------12----------------------------
B|------11--------------------11------11--------------------11--
G|----------9--11--12--11--9--------------9--11--12--11--9------
D|--------------------------------------------------------------
A|--------------------------------------------------------------
E|--------------------------------------------------------------



E|--------------------------------
B|--12----------------------------
G|------11--------------------11--
D|----------9--11--12--11--9------
A|--------------------------------
E|--------------------------------



E|--12----------------------------12--
B|------11--------------------11------
G|----------9--11--12--11--9----------
D|------------------------------------
A|------------------------------------
E|------------------------------------
http://www.guitartabcreator.com
Guitar Tab Creator is intended to store guitar tab created through the tool. It currently does not support in-line text editing. Any text you place in here will be lost. If you need to comment on your tab, please use the "Tab Notes" section located below.