Twist and Shout III

(/) Slide Up  (\) Slide Down  (h) Hammer On  (p) Pull Off  (b) Bend (r) Release (v) Vibrato
E|--------------------------------------
B|--------------------------------------
G|--------------------------------------
D|-----------0--0--5--5--7--7--7--7--7--
A|--0--2--4--------5--5--7--7--7--7--7--
E|-----------------3--3--5--5--5--5--5--



E|-----------2--2--3--3--------0--0--0--0--
B|-----------3--3--0--0-----2--2--2--2--2--
G|-----------2--2--0--0-----2--0--0--0--0--
D|-----------4--4--0--0-----2--2--2--2--2--
A|--0--2--4--------2--2-----0--0--0--0--0--
E|-----------------3--3--------------------



E|--------------5--3--3--5--5--5--5--5--
B|--------------7--3--3--5--8--8--8--8--
G|--------------7--4--4--6--6--6--6--6--
D|--------------7--5--5--7--5--5--5--5--
A|--------4--5--5--5--5--7--7--7--7--7--
E|--5--7--9-----5--3--3--5--5--5--5--5--



E|--------------------------------
B|--------------------------------
G|-----2--4--7--6--------2--4--2--
D|--4--4--5--9--7--------4--5--4--
A|--5-----------------------------
E|--------------------------------



E|---------------------
B|---------------------
G|---------------------
D|---------------------
A|---------------------
E|--5--6--7--8--9--10--
http://www.guitartabcreator.com
Guitar Tab Creator is intended to store guitar tab created through the tool. It currently does not support in-line text editing. Any text you place in here will be lost. If you need to comment on your tab, please use the "Tab Notes" section located below.