HOAMIUTK

(/) Slide Up  (\) Slide Down  (h) Hammer On  (p) Pull Off  (b) Bend (r) Release (v) Vibrato
E|-------------------------------------------------------------------------------------------------
B|-------------------------------------------------------------------------------------------------
G|--7--9--10--9--7--9--5--7--5--7--5--2--7--9--10--9--7--9--5--7--5--7--5--2--7--9--10--12--10-----
D|--------0------------------------------------0------------------------------------0--------------
A|-------------------------------------------------------------------------------------------------
E|-------------------------------------------------------------------------------------------------



E|---------------------------------------------------------------------
B|---------------------------------------------------------------------
G|--9--7--5--9--7--5--2/5--7--9--10--12--10--9--7--5--9--2/5--7--------
D|-------------------------------0----------------------------0--------
A|---------------------------------------------------------------------
E|---------------------------------------------------------------------



E|--10--12--13--12--10--12--8--10--8--10--8--5---
B|-------------------------------------------10--
G|-----------------------------------------------
D|-----------------------------------------------
A|-----------------------------------------------
E|-----------------------------------------------
http://www.guitartabcreator.com
Guitar Tab Creator is intended to store guitar tab created through the tool. It currently does not support in-line text editing. Any text you place in here will be lost. If you need to comment on your tab, please use the "Tab Notes" section located below.