Stuck in the past

(/) Slide Up  (\) Slide Down  (h) Hammer On  (p) Pull Off  (b) Bend (r) Release (v) Vibrato


E|--------------------------------------------------------------------------------
B|--------------------------------------------------------------------------------
G|--------------------------------------------------------------------------------
D|--------------------------------------------------------------------------------
A|--------------------9--9--9--9--9--9--11--11--11--11--11--11--7--7--7--7--7--7--
E|--7--7--7--7--7--7--------------------------------------------------------------



E|--------------------------------------------------------------------------
B|--------------------------------------------------------------------------
G|--------------------------------------------------------------------------
D|--------------------------------------------------------------------------
A|--------------------9--9--9--9--9--9--7--7--7--7--7--7--9--9--9--9--9--9--
E|--7--7--7--7--7--7--------------------------------------------------------



E|--------------------------------------------------------------------------------
B|--------------------------------------------------------------------------------
G|--------------------------------------------------------------------------------
D|--------------------------------------------------------------------------------
A|--------------------9--9--9--9--9--9--11--11--11--11--11--11--7--7--7--7--7--7--
E|--7--7--7--7--7--7--------------------------------------------------------------



E|--------------------------------------------------------------------------
B|--------------------------------------------------------------------------
G|--------------------------------------------------------------------------
D|--------------------------------------------------------------------------
A|--------------------9--9--9--9--9--9--7--7--7--7--7--7--7--7--7--7--7--7--
E|--7--7--7--7--7--7--------------------------------------------------------



E|-----------------------------------------------
B|-----------------------------------------------
G|-----------------------------------------------
D|-----------------------------------------------
A|-----------------------------------------------
E|--7--7--7r7--7--7--4--4--4--4r2--2--2r0--0--0--



E|----------------------------------------------
B|----------------------------------------------
G|----------------------------------------------
D|----------------------------------------------
A|----------------------------------------------
E|--7--7--7r7--7--7--4--4--4--4r2--2--2r0--0--0r



E|--------------------------------------------------------------------------------------------------
B|--------------------------------------------------------------------------------------------------
G|--------------------------------------------------------------------------------------------------
D|--------------------------------------------------------------------------------------------------
A|--4--4--4--4--4--4--4--4--------------------------7--7--7--7--7--7--7--7--7--7--7--7--7--7--7--7--
E|--------------------------4--4--4--4--4--4--4--4--------------------------------------------------



E|--------------------------------------------------------------------------------------------------
B|--------------------------------------------------------------------------------------------------
G|--------------------------------------------------------------------------------------------------
D|--------------------------------------------------------------------------------------------------
A|--4--4--4--4--4--4--4--4--------------------------7--7--7--7--7--7--7--7--7--7--7--7--7--7--7--7--
E|--------------------------4--4--4--4--4--4--4--4--------------------------------------------------



E|--------------------------------------------------------------------------------------------------
B|--------------------------------------------------------------------------------------------------
G|--------------------------------------------------------------------------------------------------
D|--------------------------------------------------------------------------------------------------
A|--------------------9--9--9--9--9--9--11--11--11--11--11--11--7--7--7--7--7--7--------------------
E|--7--7--7--7--7--7--------------------------------------------------------------7--7--7--7--7--7--



E|-----------------------------------------------------------
B|-----------------------------------------------------------
G|-----------------------------------------------------------
D|-----------------------------------------------------------
A|--------------------9--9--9--9--9--9--7--7--7--7--7--7-----
E|--7--7--7--7--7--7--------------------------------------4--
http://www.guitartabcreator.com
Guitar Tab Creator is intended to store guitar tab created through the tool. It currently does not support in-line text editing. Any text you place in here will be lost. If you need to comment on your tab, please use the "Tab Notes" section located below.