Splintered Skies by Lime Casket

(/) Slide Up  (\) Slide Down  (h) Hammer On  (p) Pull Off  (b) Bend (r) Release (v) Vibrato

INTRO
Bm D A
E|--------------------------------------------------------------------------------------------
B|--------------------------------------------------------------------------------------------
G|--------------------------------------------------------------------------------------------
D|--------4--------4--------5--4--------4--------4--------5--4--------2--------2--------5--4--
A|--2--2-----2--2-----2--2--------5--5-----5--5-----5--5--------0--0-----0--0-----0--0--------
E|--------------------------------------------------------------------------------------------

G A Bm

E|--------7--
B|--------7--
G|--4--6--7--
D|--5--7--9--
A|--5--7--9--
E|--3--5--7--


VERSES
Bm
E|--------------------------------------------------------------------
B|--------------------------------------------------------------------
G|--------------------------------------------------------------------
D|--------4--------4--------5--5--4--------4--------4--------5--5--4--
A|--2--2-----2--2-----2--2-----------2--2-----2--2-----2--2-----------
E|--------------------------------------------------------------------


D
E|--------------------------------------------------------------------
B|--------------------------------------------------------------------
G|--------------------------------------------------------------------
D|--------4--------4--------5--5--4--------4--------4--------5--5--4--
A|--5--5-----5--5-----5--5-----------5--5-----5--5-----5--5-----------
E|--------------------------------------------------------------------

A
E|-----------------------------------------------------------------------
B|-----------------------------------------------------------------------
G|-----------------------------------------------------------------------
D|--------2--------2--------5--4--2--------2--------2--------5H7P5--2--
A|--0--0-----0--0-----0--0-----------0--0-----0--0-----0--0--------------
E|-----------------------------------------------------------------------

G

E|--------------------------------------------
B|--------------------------------------------
G|--------------------------------------------
D|-----------------5-----------5--------5-----
A|--------5-----------5--------------------5--
E|--3--3-----3--3--------3--3-----3--3--------
http://www.guitartabcreator.com
Guitar Tab Creator is intended to store guitar tab created through the tool. It currently does not support in-line text editing. Any text you place in here will be lost. If you need to comment on your tab, please use the "Tab Notes" section located below.