My Emily

(/) Slide Up  (\) Slide Down  (h) Hammer On  (p) Pull Off  (b) Bend (r) Release (v) Vibrato

E|-----------------------------------|-----------------------------------|--
B|--------5--5-----------------------|--------5--5-----------------------|--
G|--------------6--7--6--------------|--------------6--7--6--------------|--
D|--7--7-----------------6--6--6--7--|--7--7-----------------6--6--6--7--|--
A|-----------------------------------|-----------------------------------|--
E|-----------------------------------|-----------------------------------|--



E|-----------------------------|--
B|--------2--------2--------3--|--
G|-----2--------2--------2-----|--
D|--4--------2--------0--------|--
A|-----------------------------|--
E|-----------------------------|--
http://www.guitartabcreator.com
Guitar Tab Creator is intended to store guitar tab created through the tool. It currently does not support in-line text editing. Any text you place in here will be lost. If you need to comment on your tab, please use the "Tab Notes" section located below.