FROZEN

(/) Slide Up  (\) Slide Down  (h) Hammer On  (p) Pull Off  (b) Bend (r) Release (v) Vibrato


E|--------------------------------------------------------------------------
B|--------------------------------------------------------------------------
G|------13--13------11--14--13--11--13------13--13------11--14--13--11--13--
D|--11----------11----------------------11----------11----------------------
A|--------------------------------------------------------------------------
E|--------------------------------------------------------------------------



E|-----------------------------------------------------
B|-----------------------------------------------------
G|------9--9--8--9--11--9--8--9-----9h11p9------8h9p8--
D|--11---------------------------9----------11---------
A|-----------------------------------------------------
E|-----------------------------------------------------
http://www.guitartabcreator.com
Guitar Tab Creator is intended to store guitar tab created through the tool. It currently does not support in-line text editing. Any text you place in here will be lost. If you need to comment on your tab, please use the "Tab Notes" section located below.