Bleed

(/) Slide Up  (\) Slide Down  (h) Hammer On  (p) Pull Off  (b) Bend (r) Release (v) Vibrato

E|--------------------------
B|--------------------------
G|--6--6--------------------
D|--6--6--7--7--6--6--9--9--
A|--4--4--4--4--6--6--9--9--
E|--4--4--5--5--4--4--7--7--



E|--------------------------
B|--------------------------
G|--6--6-----------------7--
D|--6--6--7--7--4--4--2--7--
A|--4--4--4--4--4--4--2--5--
E|--4--4--5--5--2--2--0--5--



E|--------------------------------------
B|--------------------------------------
G|--6--6--6-----------------------------
D|--6--6--6--7--7--7--2--2--2--9--9--9--
A|--4--4--4--4--4--4--2--2--2--9--9--9--
E|--4--4--4--5--5--5--0--0--0--7--7--7--
http://www.guitartabcreator.com
Guitar Tab Creator is intended to store guitar tab created through the tool. It currently does not support in-line text editing. Any text you place in here will be lost. If you need to comment on your tab, please use the "Tab Notes" section located below.