ACE UP MY SLEEVE

(/) Slide Up  (\) Slide Down  (h) Hammer On  (p) Pull Off  (b) Bend (r) Release (v) Vibrato


E|--------------------------------------------
B|--------------------------------------------
G|--------------------------------------------
D|--------------------------------------------
A|--------4-----5--4-----------4-----5--4-----
E|--4--5-----5--------5--4--5-----5--------5--



E|--------------------------------------------
B|--------------------------------------------
G|--------------------------------------------
D|-----------------------4--2--0--------------
A|--------4-----5--4--2-----------4--5--4--2--
E|--0--2-----2--------------------------------
http://www.guitartabcreator.com
Guitar Tab Creator is intended to store guitar tab created through the tool. It currently does not support in-line text editing. Any text you place in here will be lost. If you need to comment on your tab, please use the "Tab Notes" section located below.