track 1

(/) Slide Up  (\) Slide Down  (h) Hammer On  (p) Pull Off  (b) Bend (r) Release (v) Vibrato

E|------------------------------------------------------------
B|------------------------------------------------------------
G|----------10--------------12----------10--------------12b10r
D|--------------12----------12--------------12--10--12--------
A|--12--12----------10--12------12--12------------------------
E|------------------------------------------------------------



E|-----------------------------------------------------------
B|-----------------------------------------------------------
G|----------10--------------9-----------10--------------10b9r
D|--------------12----------10--------------12--10--12-------
A|--12--12----------10--12------12--12-----------------------
E|-----------------------------------------------------------



E|---------------------------------
B|--------------13-----------------
G|--10--9---10--10--10--9---10--7--
D|--0---0---0---0---0---0---0---0--
A|--12--10--12--12--12--10--12--8--
E|---------------------------------



E|-----------1--
B|-----8-----1--
G|--7--7--2--2--
D|--0--0--0--0--
A|--8--8--3--3--
E|--------------
http://www.guitartabcreator.com
Guitar Tab Creator is intended to store guitar tab created through the tool. It currently does not support in-line text editing. Any text you place in here will be lost. If you need to comment on your tab, please use the "Tab Notes" section located below.