The First Circle

(/) Slide Up  (\) Slide Down  (h) Hammer On  (p) Pull Off  (b) Bend (r) Release (v) Vibrato

Stave 1:

E|-0---0---0-----------------------------------0-------------------0-3-
B|---3---3-------0-1-0-----1-3-1---0---------0---1-0-------0-3-1-1-----
G|-----------0-2-------2-0-------0---2---2-0---------2---2-------------
D|-------------------------------------3---------------3---------------
A|---------------------------------------------------------------------
E|---------------------------------------------------------------------

Stave 2:

E|---------------------------------------0-------0-----------------
B|---1---------------------------0-1-3-1---3-1-3---3-1-0-----------
G|-2---2-------2-0-----------0-2-------------------------2---------
D|-------0-2-0-----3-2-0-2-0-------------------------------3-2-0---
A|---------------------------------------------------------------3-
E|-----------------------------------------------------------------

Stave 3:

E|-------------0---------0---------------------------------------------
B|-3-1-0-----0---3---0-1---0-----1-0-------------0-0---0---0-0---0---0-
G|-------2---------0---------2-0-----2-------2-0-----0---0-----0---0---
D|---------3---------------------------3-2-3---------------------------
A|---------------------------------------------------------------------
E|---------------------------------------------------------------------

Stave 4:

E|---------------------------------------------0-------0-0-----
B|---0-0---0-0---0---0-----------1-0---3-1-0-----3-1-1-----1-0-
G|-0-----0-----0---0-----------0-----2-------0-----------------
D|---------------------2-3-2-0---------------------------------
A|-------------------------------------------------------------
E|-------------------------------------------------------------

Stave 5:

E|---------------------------------------0-----------------------------
B|-----------1-0-------0-1-3-3-3-0-1---0---3-1-------------0-1-3---0---
G|---------0-----2-0-2---------------2-----------------0-2-------2---0-
D|---0-2-0---------------------------------------0---0-----------------
A|-3-------------------------------------------3---3-------------------
E|---------------------------------------------------------------------

Stave 6:

E|---------------------------0-----------------
B|---1-0---------1-0---0---0---3-1-0-----------
G|-2-----2---0-2-----2---0-----------2-0-0-----
D|---------3-------------------------------3-2-
A|---------------------------------------------
E|---------------------------------------------

http://www.guitartabcreator.com
Guitar Tab Creator is intended to store guitar tab created through the tool. It currently does not support in-line text editing. Any text you place in here will be lost. If you need to comment on your tab, please use the "Tab Notes" section located below.