extended 1st pos. pentatonic

(/) Slide Up  (\) Slide Down  (h) Hammer On  (p) Pull Off  (b) Bend (r) Release (v) Vibrato
E|----------------------------------------------------------------------------------12-15-17-15-12-
B|----------------------------------------------------------------12-15-17-12-15-17----------------
G|----------------------------------------------12-14-16-12-14-16----------------------------------
D|----------------------------12-14-17-12-14-17----------------------------------------------------
A|----------12-14-17-12-14-17----------------------------------------------------------------------
E|-12-15-17----------------------------------------------------------------------------------------



E|-17-15-12----------------------------------------------------------------------------------------
B|----------15-12-17-15-12-------------------------------------------------------------------------
G|-------------------------14-12-16-14-12----------------------------------------------------------
D|----------------------------------------14-12-17-14-12-------------------------------------------
A|-------------------------------------------------------14-12-17-14-12-------17-14-12-------------
E|----------------------------------------------------------------------15-12----------15-12-10-12-
http://www.guitartabcreator.com
Guitar Tab Creator is intended to store guitar tab created through the tool. It currently does not support in-line text editing. Any text you place in here will be lost. If you need to comment on your tab, please use the "Tab Notes" section located below.