A Major Pentatonic Scales

(/) Slide Up  (\) Slide Down  (h) Hammer On  (p) Pull Off  (b) Bend (r) Release (v) Vibrato


E|--------------------------------5--
B|--------------------------5--7-----
G|-----------------2--4--6-----------
D|-----------2--4--------------------
A|--0--2--4--------------------------
E|-----------------------------------



E|-----------------------------2--5--
B|-----------------------2--5--------
G|-----------------2--4--------------
D|-----------2--4--------------------
A|--0--2--4--------------------------
E|-----------------------------------



E|----------------------------------------------12--14--17--
B|----------------------------------10--12--14--------------
G|---------------------------9--11--------------------------
D|-----------------7--9--11---------------------------------
A|-----------7--9-------------------------------------------
E|--5--7--9-------------------------------------------------
http://www.guitartabcreator.com
Guitar Tab Creator is intended to store guitar tab created through the tool. It currently does not support in-line text editing. Any text you place in here will be lost. If you need to comment on your tab, please use the "Tab Notes" section located below.