C major scale 2 positions

(/) Slide Up  (\) Slide Down  (h) Hammer On  (p) Pull Off  (b) Bend (r) Release (v) Vibrato

Stave 1:

E|-----------------------------------3--5--7--8--
B|--------------------------3--5--6--------------
G|-----------------2--4--5-----------------------
D|--------2--3--5--------------------------------
A|--3--5-----------------------------------------
E|-----------------------------------------------

Stave 2:

E|----------------------------------------------7--8--
B|---------------------------------------8--10--------
G|-----------------------------7--9--10---------------
D|-------------------7--9--10-------------------------
A|---------7--8--10-----------------------------------
E|--8--10---------------------------------------------

http://www.guitartabcreator.com
Guitar Tab Creator is intended to store guitar tab created through the tool. It currently does not support in-line text editing. Any text you place in here will be lost. If you need to comment on your tab, please use the "Tab Notes" section located below.