C major scale

(/) Slide Up  (\) Slide Down  (h) Hammer On  (p) Pull Off  (b) Bend (r) Release (v) Vibrato

E|--------------------------
B|--------------------0--1--
G|--------------0--2--------
D|-----0--2--3--------------
A|--3-----------------------
E|--------------------------



E|------------------------------
B|------------------------------
G|------------------------------
D|------------------------------
A|--3--5--7--8--10--12--14--15--
E|------------------------------
http://www.guitartabcreator.com
Guitar Tab Creator is intended to store guitar tab created through the tool. It currently does not support in-line text editing. Any text you place in here will be lost. If you need to comment on your tab, please use the "Tab Notes" section located below.