We Three Kings of Orient Are

(/) Slide Up  (\) Slide Down  (h) Hammer On  (p) Pull Off  (b) Bend (r) Release (v) Vibrato
E|-----------------------------------------------------------------------------------------------
B|--0-----------------------0-----------------------------------0--0--3--1--0-----0--------------
G|-----2--0--------0-----------2--0--------0--------0--0--2--2-----------------2-----2--0--------
D|-----------2--4-----4--2-----------2--4-----4--2-----------------------------------------4--2--
A|-----------------------------------------------------------------------------------------------
E|-----------------------------------------------------------------------------------------------



E|-----------------------------------------------------------------------------------------------
B|-----------------------------------------------------------0--1--0-----0-----------------------
G|-----2--0--0--0-----0-----0--0--0--0-----0-----0--0--0--2-----------2-----0--0--0-----0-----0--
D|--4--------------0-----2--------------0-----2--------------------------------------0-----2-----
A|-----------------------------------------------------------------------------------------------
E|-----------------------------------------------------------------------------------------------
http://www.guitartabcreator.com
Guitar Tab Creator is intended to store guitar tab created through the tool. It currently does not support in-line text editing. Any text you place in here will be lost. If you need to comment on your tab, please use the "Tab Notes" section located below.