Tear Down the Walls

(/) Slide Up  (\) Slide Down  (h) Hammer On  (p) Pull Off  (b) Bend (r) Release (v) Vibrato

Intro
E|-----------------------------------------------------------|
B|--1--8--5--8(6)--3(2)--5(6)--3--8(6)--3--5(8)--1-------------|
G|-----------------------------------------------------------|
D|-----------------------------------------------------------|
A|-----------------------------------------------------------|
E|-----------------------------------------------------------|

Verse1
E|--8--1--5--1--1--8--1--8--1--1--5--8--1--1--1--1--8--1----|
B|-----------------------------------------------------------|
G|-----------------------------------------------------------|
D|-----------------------------------------------------------|
A|-----------------------------------------------------------|
E|-----------------------------------------------------------|

Verse1(second time)
E|---8---------------------------8----------------------------|
B|-------12---13---12---13---12--------12---13---12---13---12--|
G|------------------------------------------------------------|
D|------------------------------------------------------------|
A|------------------------------------------------------------|
E|------------------------------------------------------------|

Bridge
E|--8---------------8-----------------------------------------|
B|-------13---12---------13---12----13---15---17---15---13-----|
G|------------------------------------------------------------|
D|------------------------------------------------------------|
A|------------------------------------------------------------|
E|------------------------------------------------------------|
Guitar Tab Creator is intended to store guitar tab created through the tool. It currently does not support in-line text editing. Any text you place in here will be lost. If you need to comment on your tab, please use the "Tab Notes" section located below.