Power of your Love

(/) Slide Up  (\) Slide Down  (h) Hammer On  (p) Pull Off  (b) Bend (r) Release (v) Vibrato

Verse2
E|-------------------------------------------------------|
B|--8---8---8---8-----7---7---7---7-----5---5---5---5----|
G|----9---9---9---9-----7---7---7---7-----7---7---7---7--|
D|-------------------------------------------------------|
A|-------------------------------------------------------|
E|-------------------------------------------------------|

E|-------------------------------------------------------|
B|--8---8---7---7----------------------------------------|
G|----9---9---7---7--------------------------------------|
D|-------------------------------------------------------|
A|-------------------------------------------------------|
E|-------------------------------------------------------|

Brige
E|--10--10--12---12---12---12---12---12-------------------|
B|-------------------------------------------------------|
G|-------------------------------------------------------|
D|-------------------------------------------------------|
A|-------------------------------------------------------|
E|-------------------------------------------------------|

E|--10--10--12--12--10--10--12--12--15--15--17--17--(10--10--12--12(x2))--|
B|---------------------------------------------------------------------|
G|---------------------------------------------------------------------|
D|---------------------------------------------------------------------|
A|----–----------------------------------------------------------------|
E|---------------------------------------------------------------------|

http://www.guitartabcreator.com
Guitar Tab Creator is intended to store guitar tab created through the tool. It currently does not support in-line text editing. Any text you place in here will be lost. If you need to comment on your tab, please use the "Tab Notes" section located below.