BINARY FINARY (Main Theme)

(/) Slide Up  (\) Slide Down  (h) Hammer On  (p) Pull Off  (b) Bend (r) Release (v) Vibrato


E|--------------------------------------------------------------------------------------------------------
B|--------------------------------------------------------------------------------------------------------
G|-----------------------------------------------------------------------------7--------7--------7--------
D|-----7--------7--------7--------7--------7--------7--------7--------7--------------5-----5--------------
A|--0-----7--0-----0--7-----7--0-----0--7-----7--0-----0--7-----7--0-----0--7-----------------------------
E|--------------------------------------------------------------------------------7-----------7-----7-----



E|-----------------------------------------------------------------------------------------------------
B|-----------------------------------------------------------------------------------------------------
G|--9--------9--------9--------9--------9--------9--------9--------9--------9--------9--------9--------
D|--------5-----5-----------5-----5-----------5-----5-----------5-----5-----------5-----5--------------
A|-----------------------------------------------------------------------------------------------------
E|-----8-----------8-----8-----------8-----8-----------8-----8-----------8-----8-----------8-----8-----



E|--------------------------------------------------------------------------------------------------------
B|--------------------------------------------------------------------------------------------------------
G|--9--------9--------9--------9--------9--------9--9--------9--------9-----11---------11---------11------
D|--------5-----5-----------5-----5-----------5-----------5-----5--------5----------7------7--------------
A|--------------------------------------------------------------------------------------------------------
E|-----8-----------8-----8-----------8-----8-----------8-----------8------------10------------10------10--



E|------------------------------------------------------------------------------------------------------
B|------------------------------------------------------------------------------------------------------
G|--9--------9--------9--------9--------9-----11---------11---------11---------11---------11------------
D|--------5-----5-----------5-----5-------------------7------7--------------7------7--------------7-----
A|------------------------------------------------------------------------------------------------------
E|-----8-----------8-----8-----------8-----8------10------------10------10------------10------10--------



E|-----------------------------------------------------------------------------------------------------
B|-----------------------------------------------------------------------------------------------------
G|--11------12---------12---------12---------12---------12---------12---------12---------12------------
D|------------------9------9--------------9------9--------------9----------9------9--------------9-----
A|-----------------------------------------------------------------------------------------------------
E|------10------12------------12------12------------12------12---------12------------12------12--------



E|------------------------
B|------------------------
G|--12---------12---------
D|----------9------9------
A|------------------------
E|------12------------12--
http://www.guitartabcreator.com
Guitar Tab Creator is intended to store guitar tab created through the tool. It currently does not support in-line text editing. Any text you place in here will be lost. If you need to comment on your tab, please use the "Tab Notes" section located below.