Littlewing

(/) Slide Up  (\) Slide Down  (h) Hammer On  (p) Pull Off  (b) Bend (r) Release (v) Vibrato

E|------12------------------------0-----3--3h5p3-------------------------------------------
B|------12------------------------1-----3---------3----------------------------------------
G|---------------------0-------0--2------------------5--5p4h5p4-------------5--5h7p5-------
D|-------------x----------0h2-----2------------------------------5--------------------7--5h
A|-------------x--0h2-------------0------------------------------------5/7-----------------
E|--12------0--x---------------------3------------------------------5----------------------



E|-------------3--3h5p3------------------------------7--7h9p7--------------------------------
B|-------------3---------3---------------------------7---------7--1--------------------------
G|----------------------------------------------------------------2--4--2p0--------0h2p0-----
D|--7p5--------------------------5h7/9p7--5----------------------------------3--2---------0--
A|-------7------------------5/7--------------7/9---------------------------------------------
E|----------3-------------------------------------7------------------------------------------



E|-------------3--5/7-5--5\3--3--0--0--2--2---------------------
B|-------------3--3-7\3--3-1--1--1--1--3--3--3----3--3----------
G|-------------------------------0--0--2--2--2h4--2--0----------
D|--2--2/4-----------------------2--2--0--0-------------0h2--0--
A|-------------------------------3--3--0--0---------------------
E|----------3--------------------------2--2---------------------



E|--0--0--0--0--3--3--3--3--0--0--0--0--3--3--3--3--2--2--2--1--0--0--0--0--3--3--0--0-----
B|--0--0--0--0--3--3--3--3--1--1--1--1--3--3--3--3--3--3--3--2--1--1--1--1--3--3--1--1-----
G|--0--0--0--0--0--0--0--0--2--2--2--2--0--0--0--0--4--4--4--3--2--2--0--0--0--0--2--2-----
D|--2--2--2--2--0--0--0--0--2--2--2--2--2--2--2--2--4--4--4--3--2--2--2--2--0--0--3--3-----
A|--2--2--2--2--2--2--2--2--0--0--0--0--2--2--2--2--2--2--2--1--0--0--3--3--2--2--3--3-----
E|--0--0--0--0--3--3--3--3--------------0--0--0--0--------------------------3--3--1--1-----



E|--0--0--0--0--0--0--0--0--------
B|--1--1--3--3--3--3--3--3--------
G|--0--0--0--0--0--0--0--0--------
D|--2--2--4--4--4--4--4--4--------
A|--3--3--5--5--5--5--5--5--------
E|--------------------------------
http://www.guitartabcreator.com
Guitar Tab Creator is intended to store guitar tab created through the tool. It currently does not support in-line text editing. Any text you place in here will be lost. If you need to comment on your tab, please use the "Tab Notes" section located below.