Patrick's Odyssey

(/) Slide Up  (\) Slide Down  (h) Hammer On  (p) Pull Off  (b) Bend (r) Release (v) Vibrato
E|--------------------------------------------------------------------------------------------------
B|--------------------------------------------------------------------------------------------------
G|-----0-----0-----0-----0-----0-----0-----0-----0-----0-----0-----0-----0-----0-----0-----0-----0--
D|--------------------------------------------------------------------------------------------------
A|--2-----2-----2-----2-----3-----3-----3-----3-----0-----0-----0-----0-----5-----5-----5-----5-----
E|--------------------------------------------------------------------------------------------------



E|------------------------------------------------------------------------------------------------
B|------------------------------------------------------------------------------------------------
G|-----0-----0-----0--------0-----0-----0--------0-----0-----0-----0------0------0------0------0--
D|------------------------------------------------------------------------------------------------
A|--7-----7-----7-----5--3-----3-----3-----5--7-----7-----7-----9-----10-----10-----10-----10-----
E|------------------------------------------------------------------------------------------------



E|--------------------------------------------------------------------------------------------------
B|--------------------------------------------------------------------------------------------------
G|-----0-----0-----0-----0-----0-----0-----0-----0-----0-----0-----0-----0-----0-----0-----0-----0--
D|--------------------------------------------------------------------------------------------------
A|--9-----9-----9-----9-----7-----7-----7-----7-----5-----5-----5-----5-----3-----3-----3-----3-----
E|--------------------------------------------------------------------------------------------------



E|-----------------------------------------------------
B|-----------------------------------------------------
G|-----0-----0-----0-----0-----0-----0-----0-----0-----
D|-----------------------------------------------------
A|--2-----2-----2-----2-----3-----3-----3-----3-----5--
E|-----------------------------------------------------



E|--------------------------------------------------------------------------------------------------
B|--------------------------------------------------------------------------------------------------
G|-----0-----0-----0-----0-----0-----0-----0-----0-----0-----0-----0-----0-----0-----0-----0-----0--
D|--------------------------------------------------------------------------------------------------
A|--2-----2-----2-----2-----3-----3-----3-----3-----5-----5-----5-----5-----7-----7-----7-----7-----
E|--------------------------------------------------------------------------------------------------



E|--------------------------------------------------------------------------------------
B|--------------------------------------------------------------------------------------
G|-----0-----0-----0-----0------0------0------0------0------0------0------0------0------
D|--------------------------------------------------------------------------------------
A|--9-----9-----9-----9-----10-----10-----10-----10-----12-----12-----12-----12-----14--
E|--------------------------------------------------------------------------------------



E|--------------------------------------------------------------------------------------------------
B|--------------------------------------------------------------------------------------------------
G|-----0-----0-----0-----0-----0-----0-----0-----0-----0-----0-----0-----0-----0-----0-----0-----0--
D|--------------------------------------------------------------------------------------------------
A|--2-----2-----2-----2-----3-----3-----3-----3-----0-----0-----0-----0-----5-----5-----5-----5-----
E|--------------------------------------------------------------------------------------------------



E|-----------------------------------------------------------------------------------------------------
B|-----------------------------------------------------------------------------------------------------
G|-----0-----0-----0-----0-----0-----0-----0-----0-----0-----0-----0-----0-----0-----0-----0-----0-----
D|-----------------------------------------------------------------------------------------------------
A|--2-----2-----2-----2-----3-----3-----3-----3-----5-----5-----5-----5-----3-----3-----3-----3--------
E|--------------------------------------------------------------------------------------------------3--
http://www.guitartabcreator.com
Guitar Tab Creator is intended to store guitar tab created through the tool. It currently does not support in-line text editing. Any text you place in here will be lost. If you need to comment on your tab, please use the "Tab Notes" section located below.