Charlie's Demise

(/) Slide Up  (\) Slide Down  (h) Hammer On  (p) Pull Off  (b) Bend (r) Release (v) Vibrato
E|--------------------------------------------------------------2--3--0--2-----3--2--0--------
B|--------2-----3-----2-----------------------------------2-----------------------------3--2--
G|-----2-----2-----2-----2-----2--4--2--6--4--2--------2-----2--------------------------------
D|--0-----------------------0--------------------0--0-----------------------0-----------------
A|--------------------------------------------------------------------------------------------
E|--------------------------------------------------------------------------------------------



E|--------------------------------------------------------------------------------------------------
B|--------------------------------------------------------------------------------------------------
G|--------2--4--0--2--6-----------------------------------------------------------------------------
D|--0--0--0--0--0--0--0-----0--0--0-----0--0--0-----0--0--0--0--0--0--0-----0--0--0-----0--0--0-----
A|--------------------------------------------------------------------------------------------------
E|-----------------------0-----------2-----------3-----------------------7-----------5--------------



E|--------------------------------------------------------------------------------------------
B|--------------------------------------------------------------------------------------------
G|--------------------------------------------------------------------------------------------
D|-----0--0--0--0--0--0--0-----0--0--0--0--0--0--0-----0--0--0--0--0--0--0-----0--0--0--0-----
A|--------------------------0-----------------------2-----------------------4-----------------
E|--3-----------------------------------------------------------------------------------------



E|--------------------------------------------------------------------------------------
B|--------------------------------------------------------------------------------------
G|--------------------------------------------------------------------------------------
D|--0--0--0-----0--0--0--0--0--0--0-----2--2--2--2--2--2--2-----4--4--4--4--4--4--4-----
A|-----------2-----------------------0-----------------------0-----------------------0--
E|--------------------------------------------------------------------------------------



E|-------------------------------------------------------------------------------------------
B|-------------------------------------------------------------------------------------------
G|-----------------------------------------------------2----------------------------0--------
D|--2--2--2--2--2--2--2-----0--0--0--0--0--0--0-----0-----0-----0--2\4-----4--2--0-----0--2--
A|-----------------------0-----------------------0-----------0----------0--------------------
E|-------------------------------------------------------------------------------------------



E|----------------------------------------------------------------------------------------
B|----------------------------------------------------------------------------------------
G|--------2--------4--------6--------9/7--------------------------------------------------
D|-----0--------0--------0--------0-------0--0--0--0--0-----------------------------------
A|--0--------0--------0--------0-------------------------2--0-----0--0--2--2--4--4--5--5--
E|-------------------------------------------------------------2--------------------------



E|-----------------------------------------------------------------------------------------------
B|-----------------------------------------------------------------------------------------------
G|-----------------------------------------------------------------------------------------------
D|-----------------------------------------------------------------------------------------------
A|--7--7--5--5--7--7--9--9--12--12--12--9--7--7--7--9--10--10--10--7--5--5--5--5\12--12--12--12--
E|-----------------------------------------------------------------------------------------------



E|----------------------------------------------------------
B|----------------------------------------------------------
G|----------------------------------------------------------
D|----------------------------------------------------------
A|--9--7--7--7--9--10--10--10--7--5--5--5--5--3--3--3--3\5--
E|----------------------------------------------------------
http://www.guitartabcreator.com
Guitar Tab Creator is intended to store guitar tab created through the tool. It currently does not support in-line text editing. Any text you place in here will be lost. If you need to comment on your tab, please use the "Tab Notes" section located below.