Spanish Romance made easy

Stephanie Spanish Romance Made Easy

Part 1
E|--7----7----7----7----5----3----3----2----0----0----3----7------------
B|---0----0----0----0----0----0----0----0----0----0----0----0-----------
G|----0----0----0----0----0----0----0----0----0----0----0----0----------
D|----------------------------------------------------------------------
A|----------------------------------------------------------------------
E|--0--------------0--------------0--------------0----------------------

E|--12----12----12----12----10----8----8----7----5----5----7----8-------
B|----0-----0-----0-----0-----0----0----0----0----0----0----0----0------
G|-----0-----0-----0-----0-----0----0----0----0----0----0----0----0-----
D|----------------------------------------------------------------------
A|----------------------------------------------------------------------
E|---0-----------------0---------------0--------------0-----------------

E|--7----8----7----11----8----7----7----5----3----3----2----0-----------
B|---0----0----0-----0----0----0----0----0----0----0----0----0----------
G|----0----0----0-----0----0----0----0----0----0----0----0----0---------
D|----------------------------------------------------------------------
A|----------------------------------------------------------------------
E|--0---------------0--------------0--------------0---------------------

E|--2----2----2----2----3----2----0-------------------------------------
B|---0----0----0----0----0----0----0----0----0--------------------------
G|----0----0----0----0----0----0----0----0----0-------------------------
D|----------------------------------------------------------------------
A|----------------------------------------------------------------------
E|--0--------------0--------------0---------------0---------------------
Part 2
E|--4----4----4----4----2----0------------------------------------------
B|---0----0----0----0----0----0----5----4----4----4----3----4-----------
G|----0----0----0----0----0----0----0----0----0----0----0----0----------
D|------------------------------------0----0----0----0----0---0---------
A|----------------------------------------------------------------------
E|--0--------------0---------------0--------------0---------------------

E|--9----9----9----9----11----9----9----7----7----7----9----11----------
B|---0----0----0----0-----0----0----0----0----0----0----0-----0---------
G|----0----0----0----0-----0----0----0----0----0----0----0-----0--------
D|----------------------------------------------------------------------
A|----------------------------------------------------------------------
E|--0--------------0---------------0--------------0---------------------

E|--12----12----12----12----11----10----9----9----9----9----7----5------
B|----0-----0-----0-----0-----0-----0----0----0----0----0----0----0-----
G|-----0-----0-----0-----0-----0-----0----0----0----0----0----0----0----
D|----------------------------------------------------------------------
A|----------------------------------------------------------------------
E|---0-----------------0----------------0--------------0----------------

E|--4----4----4----4----5----2----0-------------------------------------
B|---0----0----0----0----0----0----0----0----0--------------------------
G|----0----0----0----0----0----0----0----0----0-------------------------
D|----------------------------------------------------------------------
A|----------------------------------------------------------------------
E|--0--------------0--------------0--------------0----------------------
Part 3
E|--7----7----7----7----5----3----3----2----0----0----3----7------------
B|---0----0----0----0----0----0----0----0----0----0----0----0-----------
G|----0----0----0----0----0----0----0----0----0----0----0----0----------
D|----------------------------------------------------------------------
A|----------------------------------------------------------------------
E|--0--------------0--------------0--------------0----------------------

E|--12----12----12----12----10----8----8----8----7----5----5----7----8--
B|----0-----0-----0-----0-----0----0----0----0----0----0----0----0----0-
G|-----0-----0-----0-----0-----0----0----0----0----0----0----0----0----0
D|----------------------------------------------------------------------
A|----------------------------------------------------------------------
E|---0------------------0--------------0-------------------0------------

E|--7----8----7----11----8----7----7----5----3----3----2----0-----------
B|---0----0----0-----0----0----0----0----0----0----0----0----0----------
G|----0----0----0-----0----0----0----0----0----0----0----0----0---------
D|----------------------------------------------------------------------
A|----------------------------------------------------------------------
E|--0---------------0--------------0--------------0---------------------
E|--2----2----2----2----3----2----0-------------------------------------
B|---0----0----0----0----0----0----0----0----0--------------------------
G|----0----0----0----0----0----0----0----0----0-------------------------
D|----------------------------------------------------------------------
A|----------------------------------------------------------------------
E|--0--------------0--------------0---------------0---------------------
http://www.guitartabcreator.com
Guitar Tab Creator is intended to store guitar tab created through the tool. It currently does not support in-line text editing. Any text you place in here will be lost. If you need to comment on your tab, please use the "Tab Notes" section located below.