octupuss garden, start bit missing

(/) Slide Up  (\) Slide Down  (h) Hammer On  (p) Pull Off  (b) Bend (r) Release (v) Vibrato

E|-------------------------------------
B|-----------------12------------------
G|--------9h11/13------13p11/9--11/13--
D|--9h11-------------------------------
A|-------------------------------------
E|-------------------------------------



E|-----------------12-------------------------------
B|---------------------14p12------------10--11--12--
G|--------9h11/13-------------13p11--9--11--12--13--
D|--9h11--------------------------------------------
A|--------------------------------------------------
E|--------------------------------------------------



E|-------------------------------------------------------
B|--14---------------------------------------------------
G|------13p11--9--9--11p9--------------------------------
D|-------------------------11p9--------------------------
A|-------------------------------11p9/7--7h9-------6-----
E|--------------------------------------------7h9-----7--
http://www.guitartabcreator.com
Guitar Tab Creator is intended to store guitar tab created through the tool. It currently does not support in-line text editing. Any text you place in here will be lost. If you need to comment on your tab, please use the "Tab Notes" section located below.