custom song 1

(/) Slide Up  (\) Slide Down  (h) Hammer On  (p) Pull Off  (b) Bend (r) Release (v) Vibrato


E|-----------1--0----------------------1--0--1-------------------------
B|--------3--------3---------------------------------------------------
G|-----2--------------2-------------2-------------------4--5--7--5--4--
D|--0--------------------0-------3-------------------2-----------------
A|----------------------------0-------------------0--------------------
E|---------------------------------------------------------------------



E|--0----0--------------0----0--------------0----0-----------------
B|--1----1--------------1----1--------------1----1-----------------
G|--2----0--------------2----0--------------2----0-----------------
D|--2----2----2----3----2----2----2----3----2----2----2----3----5--
A|-------3----2----3---------3----2----3---------3----2----3----5--
E|------------2----3--------------2----3--------------2----3----5--



E|-------------------------------------------------------------
B|----------------------------5--------------------------------
G|-------------------------------------------------------------
D|----------------------------3------------------------------3b
A|--7----10----2----3----5---------7----10----2----3--5--------
E|--7----10----2----3----5---------7----10----2----3--5--------



E|----------------------------------------------
B|----------------------------------------------x2
G|----------------------------------------------
D|------------------------------------------8v--
A|-----7--8v-------7--6v-------7---------7------
E|--7-----------7-----------7-----5v--7---------



E|--
B|--
G|--
D|--
A|--
E|--
http://www.guitartabcreator.com
Guitar Tab Creator is intended to store guitar tab created through the tool. It currently does not support in-line text editing. Any text you place in here will be lost. If you need to comment on your tab, please use the "Tab Notes" section located below.